  0
SECTION
  2
HEADER
  9
$ACADVER
  1
AC1015
  9
$ACADMAINTVER
 70
     6
  9
$DWGCODEPAGE
  3
ANSI_1254
  9
$INSBASE
 10
0.0
 20
0.0
 30
0.0
  9
$EXTMIN
 10
0.0
 20
0.0
 30
0.0
  9
$EXTMAX
 10
279.4
 20
215.9
 30
0.0
  9
$LIMMIN
 10
0.0
 20
0.0
  9
$LIMMAX
 10
279.4
 20
215.9
  9
$ORTHOMODE
 70
     0
  9
$REGENMODE
 70
     1
  9
$FILLMODE
 70
     1
  9
$QTEXTMODE
 70
     0
  9
$MIRRTEXT
 70
     1
  9
$LTSCALE
 40
1.0
  9
$ATTMODE
 70
     1
  9
$TEXTSIZE
 40
3.5
  9
$TRACEWID
 40
1.0
  9
$TEXTSTYLE
  7
Standard
  9
$CLAYER
  8
0
  9
$CELTYPE
  6
ByLayer
  9
$CECOLOR
 62
   256
  9
$CELTSCALE
 40
1.0
  9
$DISPSILH
 70
     0
  9
$DIMSCALE
 40
1.0
  9
$DIMASZ
 40
3.5
  9
$DIMEXO
 40
1.0
  9
$DIMDLI
 40
3.75
  9
$DIMRND
 40
0.0
  9
$DIMDLE
 40
0.0
  9
$DIMEXE
 40
1.0
  9
$DIMTP
 40
0.0
  9
$DIMTM
 40
0.0
  9
$DIMTXT
 40
3.5
  9
$DIMCEN
 40
2.5
  9
$DIMTSZ
 40
0.0
  9
$DIMTOL
 70
     0
  9
$DIMLIM
 70
     0
  9
$DIMTIH
 70
     1
  9
$DIMTOH
 70
     1
  9
$DIMSE1
 70
     0
  9
$DIMSE2
 70
     0
  9
$DIMTAD
 70
     1
  9
$DIMZIN
 70
     0
  9
$DIMBLK
  1

  9
$DIMASO
 70
     1
  9
$DIMSHO
 70
     1
  9
$DIMPOST
  1

  9
$DIMAPOST
  1

  9
$DIMALT
 70
     0
  9
$DIMALTD
 70
     3
  9
$DIMALTF
 40
0.0393700787
  9
$DIMLFAC
 40
1.0
  9
$DIMTOFL
 70
     1
  9
$DIMTVP
 40
0.0
  9
$DIMTIX
 70
     0
  9
$DIMSOXD
 70
     0
  9
$DIMSAH
 70
     0
  9
$DIMBLK1
  1

  9
$DIMBLK2
  1

  9
$DIMSTYLE
  2
ISO-25
  9
$DIMCLRD
 70
     0
  9
$DIMCLRE
 70
     0
  9
$DIMCLRT
 70
     0
  9
$DIMTFAC
 40
1.0
  9
$DIMGAP
 40
1.524
  9
$DIMJUST
 70
     0
  9
$DIMSD1
 70
     0
  9
$DIMSD2
 70
     0
  9
$DIMTOLJ
 70
     0
  9
$DIMTZIN
 70
     0
  9
$DIMALTZ
 70
     0
  9
$DIMALTTZ
 70
     0
  9
$DIMUPT
 70
     0
  9
$DIMDEC
 70
     2
  9
$DIMTDEC
 70
     2
  9
$DIMALTU
 70
     2
  9
$DIMALTTD
 70
     3
  9
$DIMTXSTY
  7
Standard
  9
$DIMAUNIT
 70
     0
  9
$DIMADEC
 70
     2
  9
$DIMALTRND
 40
0.0
  9
$DIMAZIN
 70
     0
  9
$DIMDSEP
 70
    44
  9
$DIMATFIT
 70
     3
  9
$DIMFRAC
 70
     0
  9
$DIMLDRBLK
  1

  9
$DIMLUNIT
 70
     2
  9
$DIMLWD
 70
    -2
  9
$DIMLWE
 70
    -2
  9
$DIMTMOVE
 70
     0
  9
$LUNITS
 70
     2
  9
$LUPREC
 70
     2
  9
$SKETCHINC
 40
1.0
  9
$FILLETRAD
 40
10.0
  9
$AUNITS
 70
     0
  9
$AUPREC
 70
     2
  9
$MENU
  1
.
  9
$ELEVATION
 40
0.0
  9
$PELEVATION
 40
0.0
  9
$THICKNESS
 40
0.0
  9
$LIMCHECK
 70
     0
  9
$CHAMFERA
 40
0.0
  9
$CHAMFERB
 40
0.0
  9
$CHAMFERC
 40
0.0
  9
$CHAMFERD
 40
0.0
  9
$SKPOLY
 70
     0
  9
$TDCREATE
 40
2460608.530307269
  9
$TDUCREATE
 40
2460608.405307269
  9
$TDUPDATE
 40
2460608.53030735
  9
$TDUUPDATE
 40
2460608.40530735
  9
$TDINDWG
 40
0.0000000116
  9
$TDUSRTIMER
 40
0.0000000116
  9
$USRTIMER
 70
     1
  9
$ANGBASE
 50
0.0
  9
$ANGDIR
 70
     0
  9
$PDMODE
 70
     0
  9
$PDSIZE
 40
-1.0
  9
$PLINEWID
 40
0.0
  9
$SPLFRAME
 70
     0
  9
$SPLINETYPE
 70
     6
  9
$SPLINESEGS
 70
     8
  9
$HANDSEED
  5
D2
  9
$SURFTAB1
 70
     6
  9
$SURFTAB2
 70
     6
  9
$SURFTYPE
 70
     6
  9
$SURFU
 70
     6
  9
$SURFV
 70
     6
  9
$UCSBASE
  2

  9
$UCSNAME
  2

  9
$UCSORG
 10
0.0
 20
0.0
 30
0.0
  9
$UCSXDIR
 10
1.0
 20
0.0
 30
0.0
  9
$UCSYDIR
 10
0.0
 20
1.0
 30
0.0
  9
$UCSORTHOREF
  2

  9
$UCSORTHOVIEW
 70
     0
  9
$UCSORGTOP
 10
0.0
 20
0.0
 30
0.0
  9
$UCSORGBOTTOM
 10
0.0
 20
0.0
 30
0.0
  9
$UCSORGLEFT
 10
0.0
 20
0.0
 30
0.0
  9
$UCSORGRIGHT
 10
0.0
 20
0.0
 30
0.0
  9
$UCSORGFRONT
 10
0.0
 20
0.0
 30
0.0
  9
$UCSORGBACK
 10
0.0
 20
0.0
 30
0.0
  9
$PUCSBASE
  2

  9
$PUCSNAME
  2

  9
$PUCSORG
 10
0.0
 20
0.0
 30
0.0
  9
$PUCSXDIR
 10
1.0
 20
0.0
 30
0.0
  9
$PUCSYDIR
 10
0.0
 20
1.0
 30
0.0
  9
$PUCSORTHOREF
  2

  9
$PUCSORTHOVIEW
 70
     0
  9
$PUCSORGTOP
 10
0.0
 20
0.0
 30
0.0
  9
$PUCSORGBOTTOM
 10
0.0
 20
0.0
 30
0.0
  9
$PUCSORGLEFT
 10
0.0
 20
0.0
 30
0.0
  9
$PUCSORGRIGHT
 10
0.0
 20
0.0
 30
0.0
  9
$PUCSORGFRONT
 10
0.0
 20
0.0
 30
0.0
  9
$PUCSORGBACK
 10
0.0
 20
0.0
 30
0.0
  9
$USERI1
 70
     0
  9
$USERI2
 70
     0
  9
$USERI3
 70
     0
  9
$USERI4
 70
     0
  9
$USERI5
 70
     0
  9
$USERR1
 40
0.0
  9
$USERR2
 40
0.0
  9
$USERR3
 40
0.0
  9
$USERR4
 40
0.0
  9
$USERR5
 40
0.0
  9
$WORLDVIEW
 70
     1
  9
$SHADEDGE
 70
     3
  9
$SHADEDIF
 70
    70
  9
$TILEMODE
 70
     1
  9
$MAXACTVP
 70
    64
  9
$PINSBASE
 10
0.0
 20
0.0
 30
0.0
  9
$PLIMCHECK
 70
     0
  9
$PEXTMIN
 10
1.0000000000E+20
 20
1.0000000000E+20
 30
1.0000000000E+20
  9
$PEXTMAX
 10
-1.0000000000E+20
 20
-1.0000000000E+20
 30
-1.0000000000E+20
  9
$PLIMMIN
 10
0.0
 20
0.0
  9
$PLIMMAX
 10
420.0
 20
297.0
  9
$UNITMODE
 70
     0
  9
$VISRETAIN
 70
     1
  9
$PLINEGEN
 70
     0
  9
$PSLTSCALE
 70
     1
  9
$TREEDEPTH
 70
  3020
  9
$CMLSTYLE
  2
Standard
  9
$CMLJUST
 70
     0
  9
$CMLSCALE
 40
20.0
  9
$PROXYGRAPHICS
 70
     1
  9
$MEASUREMENT
 70
     1
  9
$CELWEIGHT
370
    -1
  9
$ENDCAPS
280
     0
  9
$JOINSTYLE
280
     0
  9
$LWDISPLAY
290
     1
  9
$INSUNITS
 70
     4
  9
$HYPERLINKBASE
  1

  9
$STYLESHEET
  1

  9
$XEDIT
290
     1
  9
$CEPSNTYPE
380
     0
  9
$PSTYLEMODE
290
     1
  9
$FINGERPRINTGUID
  2
{190a08a6-996b-454e-ac9e-b7ca734728bb}
  9
$VERSIONGUID
  2
{FAEB1C32-E019-11D5-929B-00C0DF256EC4}
  9
$EXTNAMES
290
     1
  9
$PSVPSCALE
 40
0.0
  9
$OLESTARTUP
290
     0
  0
ENDSEC
  0
SECTION
  2
CLASSES
  0
CLASS
  1
ACDBDICTIONARYWDFLT
  2
AcDbDictionaryWithDefault
  3
ObjectDBX Classes
 90
        0
280
     0
281
     0
  0
CLASS
  1
VISUALSTYLE
  2
AcDbVisualStyle
  3
ObjectDBX Classes
 90
     4095
280
     0
281
     0
  0
CLASS
  1
MATERIAL
  2
AcDbMaterial
  3
ObjectDBX Classes
 90
     1153
280
     0
281
     0
  0
CLASS
  1
SCALE
  2
AcDbScale
  3
ObjectDBX Classes
 90
     1153
280
     0
281
     0
  0
CLASS
  1
TABLESTYLE
  2
AcDbTableStyle
  3
ObjectDBX Classes
 90
     4095
280
     0
281
     0
  0
CLASS
  1
MLEADERSTYLE
  2
AcDbMLeaderStyle
  3
ACDB_MLEADERSTYLE_CLASS
 90
     4095
280
     0
281
     0
  0
CLASS
  1
SUN
  2
AcDbSun
  3
SCENEOE
 90
     1153
280
     0
281
     0
  0
CLASS
  1
ACDBPLACEHOLDER
  2
AcDbPlaceHolder
  3
ObjectDBX Classes
 90
        0
280
     0
281
     0
  0
CLASS
  1
LAYOUT
  2
AcDbLayout
  3
ObjectDBX Classes
 90
        0
280
     0
281
     0
  0
ENDSEC
  0
SECTION
  2
TABLES
  0
TABLE
  2
VPORT
  5
8
330
0
100
AcDbSymbolTable
 70
     1
  0
VPORT
  5
29
330
8
100
AcDbSymbolTableRecord
100
AcDbViewportTableRecord
  2
*Active
 70
     0
 10
0.0
 20
0.0
 11
1.0
 21
1.0
 12
139.7
 22
107.95
 13
0.0
 23
0.0
 14
10.0
 24
10.0
 15
10.0
 25
10.0
 16
0.0
 26
0.0
 36
1.0
 17
0.0
 27
0.0
 37
0.0
 40
215.9
 41
1.2941176471
 42
50.0
 43
0.0
 44
0.0
 50
0.0
 51
0.0
 71
     0
 72
  2000
 73
     1
 74
     3
 75
     0
 76
     0
 77
     0
 78
     0
281
     0
 65
     1
110
0.0
120
0.0
130
0.0
111
1.0
121
0.0
131
0.0
112
0.0
122
1.0
132
0.0
 79
     0
146
0.0
  0
ENDTAB
  0
TABLE
  2
LTYPE
  5
5
330
0
100
AcDbSymbolTable
 70
     6
  0
LTYPE
  5
14
330
5
100
AcDbSymbolTableRecord
100
AcDbLinetypeTableRecord
  2
ByBlock
 70
     0
  3

 72
    65
 73
     0
 40
0.0
  0
LTYPE
  5
15
330
5
100
AcDbSymbolTableRecord
100
AcDbLinetypeTableRecord
  2
ByLayer
 70
     0
  3

 72
    65
 73
     0
 40
0.0
  0
LTYPE
  5
16
330
5
100
AcDbSymbolTableRecord
100
AcDbLinetypeTableRecord
  2
Continuous
 70
     0
  3
Solid line
 72
    65
 73
     0
 40
0.0
  0
LTYPE
  5
6E
330
5
100
AcDbSymbolTableRecord
100
AcDbLinetypeTableRecord
  2
HIDDEN
 70
     0
  3
Hidden __ __ __ __ __ __ __ __ __ __ __ __ __ __
 72
    65
 73
     2
 40
1.905
 49
1.27
 74
     0
 49
-0.635
 74
     0
  0
LTYPE
  5
6F
330
5
100
AcDbSymbolTableRecord
100
AcDbLinetypeTableRecord
  2
PHANTOM
 70
     0
  3
Phantom ______  __  __  ______  __  __  ______
 72
    65
 73
     6
 40
12.7
 49
6.35
 74
     0
 49
-1.27
 74
     0
 49
1.27
 74
     0
 49
-1.27
 74
     0
 49
1.27
 74
     0
 49
-1.27
 74
     0
  0
LTYPE
  5
70
330
5
100
AcDbSymbolTableRecord
100
AcDbLinetypeTableRecord
  2
CENTER
 70
     0
  3
Center ____ _ ____ _ ____ _ ____ _ ____ _ ____
 72
    65
 73
     4
 40
10.16
 49
6.35
 74
     0
 49
-1.27
 74
     0
 49
1.27
 74
     0
 49
-1.27
 74
     0
  0
LTYPE
  5
71
330
5
100
AcDbSymbolTableRecord
100
AcDbLinetypeTableRecord
  2
CENTERX2
 70
     0
  3
Center (2x) ________  __  ________  __  _____
 72
    65
 73
     4
 40
20.32
 49
12.7
 74
     0
 49
-2.54
 74
     0
 49
2.54
 74
     0
 49
-2.54
 74
     0
  0
LTYPE
  5
72
330
5
100
AcDbSymbolTableRecord
100
AcDbLinetypeTableRecord
  2
DOT2
 70
     0
  3
Dot (.5x) ........................................
 72
    65
 73
     2
 40
0.635
 49
0.0
 74
     0
 49
-0.635
 74
     0
  0
ENDTAB
  0
TABLE
  2
LAYER
  5
2
330
0
100
AcDbSymbolTable
 70
    17
  0
LAYER
  5
10
330
2
100
AcDbSymbolTableRecord
100
AcDbLayerTableRecord
  2
0
 70
     0
 62
     7
  6
Continuous
370
    -3
390
F
  0
LAYER
  5
73
330
2
100
AcDbSymbolTableRecord
100
AcDbLayerTableRecord
  2
FORMAT
 70
     0
 62
     7
  6
Continuous
370
    -3
390
F
  0
LAYER
  5
74
330
2
100
AcDbSymbolTableRecord
100
AcDbLayerTableRecord
  2
YARDIMCI_GEOMETRI
 70
     0
 62
    -6
  6
Continuous
290
     0
370
    -3
390
F
  0
LAYER
  5
75
330
2
100
AcDbSymbolTableRecord
100
AcDbLayerTableRecord
  2
SAYFA_CERCEVESI
 70
     0
 62
     7
  6
Continuous
370
    25
390
F
  0
LAYER
  5
76
330
2
100
AcDbSymbolTableRecord
100
AcDbLayerTableRecord
  2
ANTET
 70
     0
 62
     7
  6
Continuous
370
    -3
390
F
  0
LAYER
  5
77
330
2
100
AcDbSymbolTableRecord
100
AcDbLayerTableRecord
  2
OLCU
 70
     0
 62
   150
  6
Continuous
370
    -3
390
F
  0
LAYER
  5
78
330
2
100
AcDbSymbolTableRecord
100
AcDbLayerTableRecord
  2
METIN
 70
     0
 62
    96
  6
Continuous
370
    -3
390
F
  0
LAYER
  5
79
330
2
100
AcDbSymbolTableRecord
100
AcDbLayerTableRecord
  2
BALON
 70
     0
 62
     5
  6
Continuous
370
    -3
390
F
  0
LAYER
  5
7A
330
2
100
AcDbSymbolTableRecord
100
AcDbLayerTableRecord
  2
VURGU
 70
     0
 62
     7
  6
Continuous
370
    -3
390
F
  0
LAYER
  5
7B
330
2
100
AcDbSymbolTableRecord
100
AcDbLayerTableRecord
  2
SILIK
 70
     0
 62
     7
  6
Continuous
370
    -3
390
F
  0
LAYER
  5
7C
330
2
100
AcDbSymbolTableRecord
100
AcDbLayerTableRecord
  2
MODEL
 70
     0
 62
     7
  6
Continuous
370
    -3
390
F
  0
LAYER
  5
7D
330
2
100
AcDbSymbolTableRecord
100
AcDbLayerTableRecord
  2
DETAYLANDıRMA
 70
     0
 62
   190
  6
Continuous
370
    -3
390
F
  0
LAYER
  5
7E
330
2
100
AcDbSymbolTableRecord
100
AcDbLayerTableRecord
  2
TOLERANS
 70
     0
 62
   230
  6
Continuous
370
    -3
390
F
  0
LAYER
  5
7F
330
2
100
AcDbSymbolTableRecord
100
AcDbLayerTableRecord
  2
MERKEZ_CIZGILERI
 70
     0
 62
    30
  6
Continuous
370
    -3
390
F
  0
LAYER
  5
80
330
2
100
AcDbSymbolTableRecord
100
AcDbLayerTableRecord
  2
KESIT-DETAY_CIZGILERI
 70
     0
 62
     7
  6
Continuous
370
    -3
390
F
  0
LAYER
  5
81
330
2
100
AcDbSymbolTableRecord
100
AcDbLayerTableRecord
  2
\U+041E\U+0421\U+0415\U+0412\U+042B\U+0415
 70
     0
 62
     7
  6
Continuous
370
    -3
390
F
  0
LAYER
  5
82
330
2
100
AcDbSymbolTableRecord
100
AcDbLayerTableRecord
  2
\U+0412\U+041E\U+0414\U+042F\U+041D\U+042B\U+0415_\U+0417\U+041D\U+0410\U+041A\U+0418
 70
     0
 62
    11
  6
Continuous
370
    -3
390
F
  0
ENDTAB
  0
TABLE
  2
STYLE
  5
3
330
0
100
AcDbSymbolTable
 70
     1
  0
STYLE
  5
11
330
3
100
AcDbSymbolTableRecord
100
AcDbTextStyleTableRecord
  2
Standard
 70
     0
 40
0.0
 41
1.0
 50
0.0
 71
     0
 42
3.5
  3
txt
  4

  0
ENDTAB
  0
TABLE
  2
VIEW
  5
6
330
0
100
AcDbSymbolTable
 70
     0
  0
ENDTAB
  0
TABLE
  2
UCS
  5
7
330
0
100
AcDbSymbolTable
 70
     0
  0
ENDTAB
  0
TABLE
  2
APPID
  5
9
330
0
100
AcDbSymbolTable
 70
     1
  0
APPID
  5
12
330
9
100
AcDbSymbolTableRecord
100
AcDbRegAppTableRecord
  2
ACAD
 70
     0
  0
ENDTAB
  0
TABLE
  2
DIMSTYLE
  5
A
330
0
100
AcDbSymbolTable
 70
     1
100
AcDbDimStyleTable
  0
DIMSTYLE
105
27
330
A
100
AcDbSymbolTableRecord
100
AcDbDimStyleTableRecord
  2
ISO-25
 70
     0
 41
2.5
 42
0.625
 43
3.75
 44
1.25
 73
     0
 74
     0
 77
     1
 78
     8
140
2.5
141
2.5
143
0.0393700787
147
0.625
171
     3
172
     1
178
     0
271
     2
272
     2
274
     3
278
    44
283
     0
284
     8
340
11
  0
ENDTAB
  0
TABLE
  2
BLOCK_RECORD
  5
1
330
0
100
AcDbSymbolTable
 70
     3
  0
BLOCK_RECORD
  5
1F
330
1
100
AcDbSymbolTableRecord
100
AcDbBlockTableRecord
  2
*Model_Space
340
22
  0
BLOCK_RECORD
  5
1B
330
1
100
AcDbSymbolTableRecord
100
AcDbBlockTableRecord
  2
*Paper_Space
340
1E
  0
BLOCK_RECORD
  5
23
330
1
100
AcDbSymbolTableRecord
100
AcDbBlockTableRecord
  2
*Paper_Space0
340
26
  0
BLOCK_RECORD
  5
88
330
1
100
AcDbSymbolTableRecord
100
AcDbBlockTableRecord
  2
SW_CENTERMARKSYMBOL_0
340
0
102
{BLKREFS
331
93
102
}
  0
BLOCK_RECORD
  5
9E
330
1
100
AcDbSymbolTableRecord
100
AcDbBlockTableRecord
  2
SW_CENTERMARKSYMBOL_1
340
0
102
{BLKREFS
331
A9
102
}
  0
ENDTAB
  0
ENDSEC
  0
SECTION
  2
BLOCKS
  0
BLOCK
  5
20
330
1F
100
AcDbEntity
  8
0
100
AcDbBlockBegin
  2
*Model_Space
 70
     0
 10
0.0
 20
0.0
 30
0.0
  3
*Model_Space
  1

  0
ENDBLK
  5
21
330
1F
100
AcDbEntity
  8
0
100
AcDbBlockEnd
  0
BLOCK
  5
1C
330
1B
100
AcDbEntity
 67
     1
  8
0
100
AcDbBlockBegin
  2
*Paper_Space
 70
     0
 10
0.0
 20
0.0
 30
0.0
  3
*Paper_Space
  1

  0
ENDBLK
  5
1D
330
1B
100
AcDbEntity
 67
     1
  8
0
100
AcDbBlockEnd
  0
BLOCK
  5
24
330
23
100
AcDbEntity
  8
0
100
AcDbBlockBegin
  2
*Paper_Space0
 70
     0
 10
0.0
 20
0.0
 30
0.0
  3
*Paper_Space0
  1

  0
ENDBLK
  5
25
330
23
100
AcDbEntity
  8
0
100
AcDbBlockEnd
  0
BLOCK
  5
89
330
88
100
AcDbEntity
  8
0
100
AcDbBlockBegin
  2
SW_CENTERMARKSYMBOL_0
 70
     0
 10
0.0
 20
0.0
 30
0.0
  3
SW_CENTERMARKSYMBOL_0
  1

  0
LINE
  5
8B
330
88
100
AcDbEntity
  8
FORMAT
 62
     0
100
AcDbLine
 10
0.0
 20
0.0
 30
0.0
 11
0.0
 21
2.5
 31
0.0
  0
LINE
  5
8C
330
88
100
AcDbEntity
  8
FORMAT
 62
     0
100
AcDbLine
 10
0.0
 20
0.0
 30
0.0
 11
-2.5
 21
0.0
 31
0.0
  0
LINE
  5
8D
330
88
100
AcDbEntity
  8
FORMAT
 62
     0
100
AcDbLine
 10
0.0
 20
0.0
 30
0.0
 11
0.0
 21
-2.5
 31
0.0
  0
LINE
  5
8E
330
88
100
AcDbEntity
  8
FORMAT
 62
     0
100
AcDbLine
 10
0.0
 20
0.0
 30
0.0
 11
2.5
 21
0.0
 31
0.0
  0
LINE
  5
8F
330
88
100
AcDbEntity
  8
FORMAT
 62
     0
100
AcDbLine
 10
0.0
 20
5.0
 30
0.0
 11
0.0
 21
57.5
 31
0.0
  0
LINE
  5
90
330
88
100
AcDbEntity
  8
FORMAT
 62
     0
100
AcDbLine
 10
-5.0
 20
0.0
 30
0.0
 11
-57.5
 21
0.0
 31
0.0
  0
LINE
  5
91
330
88
100
AcDbEntity
  8
FORMAT
 62
     0
100
AcDbLine
 10
0.0
 20
-5.0
 30
0.0
 11
0.0
 21
-57.5
 31
0.0
  0
LINE
  5
92
330
88
100
AcDbEntity
  8
FORMAT
 62
     0
100
AcDbLine
 10
5.0
 20
0.0
 30
0.0
 11
57.5
 21
0.0
 31
0.0
  0
ENDBLK
  5
8A
330
88
100
AcDbEntity
  8
0
100
AcDbBlockEnd
  0
BLOCK
  5
9F
330
9E
100
AcDbEntity
  8
0
100
AcDbBlockBegin
  2
SW_CENTERMARKSYMBOL_1
 70
     0
 10
0.0
 20
0.0
 30
0.0
  3
SW_CENTERMARKSYMBOL_1
  1

  0
LINE
  5
A1
330
9E
100
AcDbEntity
  8
FORMAT
 62
     0
100
AcDbLine
 10
0.0
 20
0.0
 30
0.0
 11
0.0
 21
2.5
 31
0.0
  0
LINE
  5
A2
330
9E
100
AcDbEntity
  8
FORMAT
 62
     0
100
AcDbLine
 10
0.0
 20
0.0
 30
0.0
 11
-2.5
 21
0.0
 31
0.0
  0
LINE
  5
A3
330
9E
100
AcDbEntity
  8
FORMAT
 62
     0
100
AcDbLine
 10
0.0
 20
0.0
 30
0.0
 11
0.0
 21
-2.5
 31
0.0
  0
LINE
  5
A4
330
9E
100
AcDbEntity
  8
FORMAT
 62
     0
100
AcDbLine
 10
0.0
 20
0.0
 30
0.0
 11
2.5
 21
0.0
 31
0.0
  0
LINE
  5
A5
330
9E
100
AcDbEntity
  8
FORMAT
 62
     0
100
AcDbLine
 10
0.0
 20
5.0
 30
0.0
 11
0.0
 21
57.5
 31
0.0
  0
LINE
  5
A6
330
9E
100
AcDbEntity
  8
FORMAT
 62
     0
100
AcDbLine
 10
-5.0
 20
0.0
 30
0.0
 11
-57.5
 21
0.0
 31
0.0
  0
LINE
  5
A7
330
9E
100
AcDbEntity
  8
FORMAT
 62
     0
100
AcDbLine
 10
0.0
 20
-5.0
 30
0.0
 11
0.0
 21
-57.5
 31
0.0
  0
LINE
  5
A8
330
9E
100
AcDbEntity
  8
FORMAT
 62
     0
100
AcDbLine
 10
5.0
 20
0.0
 30
0.0
 11
57.5
 21
0.0
 31
0.0
  0
ENDBLK
  5
A0
330
9E
100
AcDbEntity
  8
0
100
AcDbBlockEnd
  0
ENDSEC
  0
SECTION
  2
ENTITIES
  0
LINE
  5
83
330
1F
100
AcDbEntity
  8
0
  6
Continuous
 62
     7
370
    25
100
AcDbLine
 10
79.4441645344
 20
51.750436017
 30
0.0
 11
242.4441645344
 21
51.750436017
 31
0.0
  0
LINE
  5
84
330
1F
100
AcDbEntity
  8
0
  6
Continuous
 62
     7
370
    25
100
AcDbLine
 10
242.4441645344
 20
161.750436017
 30
0.0
 11
79.4441645344
 21
161.750436017
 31
0.0
  0
CIRCLE
  5
85
330
1F
100
AcDbEntity
  8
0
  6
Continuous
 62
     7
370
    25
100
AcDbCircle
 10
79.4441645344
 20
106.750436017
 30
0.0
 40
44.99999999999999
  0
CIRCLE
  5
86
330
1F
100
AcDbEntity
  8
0
  6
Continuous
 62
     7
370
    25
100
AcDbCircle
 10
79.4441645344
 20
106.750436017
 30
0.0
 40
55.0
  0
LINE
  5
87
330
1F
100
AcDbEntity
  8
0
  6
Continuous
 62
     7
370
    25
100
AcDbLine
 10
242.4441645344
 20
161.750436017
 30
0.0
 11
242.4441645344
 21
51.750436017
 31
0.0
  0
INSERT
  5
93
330
1F
100
AcDbEntity
  8
FORMAT
 62
     7
100
AcDbBlockReference
  2
SW_CENTERMARKSYMBOL_0
 10
79.4441645344
 20
106.750436017
 30
0.0
  0
LINE
  5
94
330
1F
100
AcDbEntity
  8
0
  6
Continuous
 62
     7
370
    25
100
AcDbLine
 10
-235.0999084384
 20
161.750436017
 30
0.0
 11
-399.5999084384
 21
161.750436017
 31
0.0
  0
LINE
  5
95
330
1F
100
AcDbEntity
  8
0
  6
Continuous
 62
     7
370
    25
100
AcDbLine
 10
-70.5999084384
 20
161.750436017
 30
0.0
 11
-235.0999084384
 21
161.750436017
 31
0.0
  0
LINE
  5
96
330
1F
100
AcDbEntity
  8
0
  6
Continuous
 62
     7
370
    25
100
AcDbLine
 10
-235.0999084384
 20
51.750436017
 30
0.0
 11
-70.5999084384
 21
51.750436017
 31
0.0
  0
LINE
  5
97
330
1F
100
AcDbEntity
  8
0
  6
Continuous
 62
     7
370
    25
100
AcDbLine
 10
-399.5999084384
 20
51.750436017
 30
0.0
 11
-235.0999084384
 21
51.750436017
 31
0.0
  0
CIRCLE
  5
98
330
1F
100
AcDbEntity
  8
0
  6
Continuous
 62
     7
370
    25
100
AcDbCircle
 10
-235.0999084384
 20
106.750436017
 30
0.0
 40
44.99999999999997
  0
CIRCLE
  5
99
330
1F
100
AcDbEntity
  8
0
  6
Continuous
 62
     7
370
    25
100
AcDbCircle
 10
-235.0999084384
 20
106.750436017
 30
0.0
 40
54.99999999999997
  0
LINE
  5
9A
330
1F
100
AcDbEntity
  8
0
  6
Continuous
 62
     7
370
    25
100
AcDbLine
 10
-399.5999084384
 20
106.750436017
 30
0.0
 11
-399.5999084384
 21
161.750436017
 31
0.0
  0
LINE
  5
9B
330
1F
100
AcDbEntity
  8
0
  6
Continuous
 62
     7
370
    25
100
AcDbLine
 10
-399.5999084384
 20
51.750436017
 30
0.0
 11
-399.5999084384
 21
106.750436017
 31
0.0
  0
LINE
  5
9C
330
1F
100
AcDbEntity
  8
0
  6
Continuous
 62
     7
370
    25
100
AcDbLine
 10
-70.5999084384
 20
106.750436017
 30
0.0
 11
-70.5999084384
 21
161.750436017
 31
0.0
  0
LINE
  5
9D
330
1F
100
AcDbEntity
  8
0
  6
Continuous
 62
     7
370
    25
100
AcDbLine
 10
-70.5999084384
 20
51.750436017
 30
0.0
 11
-70.5999084384
 21
106.750436017
 31
0.0
  0
INSERT
  5
A9
330
1F
100
AcDbEntity
  8
FORMAT
 62
     7
100
AcDbBlockReference
  2
SW_CENTERMARKSYMBOL_1
 10
-235.0999084384
 20
106.750436017
 30
0.0
  0
LINE
  5
AA
330
1F
100
AcDbEntity
  8
0
  6
Continuous
 62
     7
370
    25
100
AcDbLine
 10
134.4441645344
 20
448.2483216471
 30
0.0
 11
134.4441645344
 21
557.7483216471
 31
0.0
  0
LINE
  5
AB
330
1F
100
AcDbEntity
  8
0
  6
Continuous
 62
     7
370
    25
100
AcDbLine
 10
134.4441645344
 20
228.7483216471
 30
0.0
 11
134.4441645344
 21
338.2483216471
 31
0.0
  0
LINE
  5
AC
330
1F
100
AcDbEntity
  8
0
  6
Continuous
 62
     7
370
    25
100
AcDbLine
 10
24.4441645344
 20
557.7483216471
 30
0.0
 11
24.4441645344
 21
228.7483216471
 31
0.0
  0
LINE
  5
AD
330
1F
100
AcDbEntity
  8
0
  6
Continuous
 62
     7
370
    25
100
AcDbLine
 10
134.4441645344
 20
338.2483216471
 30
0.0
 11
242.4441645344
 21
338.2483216471
 31
0.0
  0
LINE
  5
AE
330
1F
100
AcDbEntity
  8
0
  6
Continuous
 62
     7
370
    25
100
AcDbLine
 10
242.4441645344
 20
448.2483216471
 30
0.0
 11
134.4441645344
 21
448.2483216471
 31
0.0
  0
LINE
  5
AF
330
1F
100
AcDbEntity
  8
0
  6
Continuous
 62
     7
370
    25
100
AcDbLine
 10
134.4441645344
 20
448.2483216471
 30
0.0
 11
79.4441645344
 21
393.2483216471
 31
0.0
  0
LINE
  5
B0
330
1F
100
AcDbEntity
  8
0
  6
Continuous
 62
     7
370
    25
100
AcDbLine
 10
79.4441645344
 20
393.2483216471
 30
0.0
 11
134.4441645344
 21
338.2483216471
 31
0.0
  0
LINE
  5
B1
330
1F
100
AcDbEntity
  8
0
  6
Continuous
 62
     7
370
    25
100
AcDbLine
 10
24.4441645344
 20
557.7483216471
 30
0.0
 11
134.4441645344
 21
557.7483216471
 31
0.0
  0
LINE
  5
B2
330
1F
100
AcDbEntity
  8
0
  6
Continuous
 62
     7
370
    25
100
AcDbLine
 10
24.4441645344
 20
228.7483216471
 30
0.0
 11
134.4441645344
 21
228.7483216471
 31
0.0
  0
LINE
  5
B3
330
1F
100
AcDbEntity
  8
0
  6
Continuous
 62
     7
370
    25
100
AcDbLine
 10
242.4441645344
 20
448.2483216471
 30
0.0
 11
242.4441645344
 21
338.2483216471
 31
0.0
  0
LINE
  5
B4
330
1F
100
AcDbEntity
  8
0
  6
Continuous
 62
     7
370
    25
100
AcDbLine
 10
469.003696544
 20
51.750436017
 30
0.0
 11
633.503696544
 21
51.750436017
 31
0.0
  0
LINE
  5
B5
330
1F
100
AcDbEntity
  8
0
  6
Continuous
 62
     7
370
    25
100
AcDbLine
 10
304.503696544
 20
51.750436017
 30
0.0
 11
469.003696544
 21
51.750436017
 31
0.0
  0
LINE
  5
B6
330
1F
100
AcDbEntity
  8
0
  6
Continuous
 62
     7
370
    25
100
AcDbLine
 10
469.003696544
 20
161.750436017
 30
0.0
 11
304.503696544
 21
161.750436017
 31
0.0
  0
LINE
  5
B7
330
1F
100
AcDbEntity
  8
0
  6
Continuous
 62
     7
370
    25
100
AcDbLine
 10
633.503696544
 20
161.750436017
 30
0.0
 11
469.003696544
 21
161.750436017
 31
0.0
  0
LINE
  5
B8
330
1F
100
AcDbEntity
  8
0
  6
Continuous
 62
     7
370
    25
100
AcDbLine
 10
633.503696544
 20
161.750436017
 30
0.0
 11
633.503696544
 21
51.750436017
 31
0.0
  0
LINE
  5
B9
330
1F
100
AcDbEntity
  8
0
  6
Continuous
 62
     7
370
    25
100
AcDbLine
 10
304.503696544
 20
161.750436017
 30
0.0
 11
304.503696544
 21
51.750436017
 31
0.0
  0
LINE
  5
BA
330
1F
100
AcDbEntity
  8
0
  6
Continuous
 62
     7
370
    25
100
AcDbLine
 10
24.4441645344
 20
-17.6602155704
 30
0.0
 11
24.4441645344
 21
-346.6602155704
 31
0.0
  0
LINE
  5
BB
330
1F
100
AcDbEntity
  8
0
  6
Continuous
 62
     7
370
    25
100
AcDbLine
 10
134.4441645344
 20
-127.1602155704
 30
0.0
 11
134.4441645344
 21
-17.6602155704
 31
0.0
  0
LINE
  5
BC
330
1F
100
AcDbEntity
  8
0
  6
Continuous
 62
     7
370
    25
100
AcDbLine
 10
134.4441645344
 20
-346.6602155704
 30
0.0
 11
134.4441645344
 21
-237.1602155704
 31
0.0
  0
LINE
  5
BD
330
1F
100
AcDbEntity
  8
0
  6
Continuous
 62
     7
370
    25
100
AcDbLine
 10
134.4441645344
 20
-237.1602155704
 30
0.0
 11
242.4441645344
 21
-237.1602155704
 31
0.0
  0
LINE
  5
BE
330
1F
100
AcDbEntity
  8
0
  6
Continuous
 62
     7
370
    25
100
AcDbLine
 10
242.4441645344
 20
-127.1602155704
 30
0.0
 11
134.4441645344
 21
-127.1602155704
 31
0.0
  0
LINE
  5
BF
330
1F
100
AcDbEntity
  8
0
  6
Continuous
 62
     7
370
    25
100
AcDbLine
 10
79.4441645344
 20
-182.1602155704
 30
0.0
 11
134.4441645344
 21
-237.1602155704
 31
0.0
  0
LINE
  5
C0
330
1F
100
AcDbEntity
  8
0
  6
Continuous
 62
     7
370
    25
100
AcDbLine
 10
134.4441645344
 20
-127.1602155704
 30
0.0
 11
79.4441645344
 21
-182.1602155704
 31
0.0
  0
LINE
  5
C1
330
1F
100
AcDbEntity
  8
0
  6
Continuous
 62
     7
370
    25
100
AcDbLine
 10
134.4441645344
 20
-346.6602155704
 30
0.0
 11
24.4441645344
 21
-346.6602155704
 31
0.0
  0
LINE
  5
C2
330
1F
100
AcDbEntity
  8
0
  6
Continuous
 62
     7
370
    25
100
AcDbLine
 10
134.4441645344
 20
-17.6602155704
 30
0.0
 11
24.4441645344
 21
-17.6602155704
 31
0.0
  0
LINE
  5
C3
330
1F
100
AcDbEntity
  8
0
  6
Continuous
 62
     7
370
    25
100
AcDbLine
 10
242.4441645344
 20
-127.1602155704
 30
0.0
 11
242.4441645344
 21
-237.1602155704
 31
0.0
  0
LINE
  5
C4
330
1F
100
AcDbEntity
  8
0
  6
Continuous
 62
     7
370
    25
100
AcDbLine
 10
457.4772159572
 20
-100.442462129
 30
0.0
 11
368.6559155995
 21
-49.1670168611
 31
0.0
  0
LINE
  5
C5
330
1F
100
AcDbEntity
  8
0
  6
Continuous
 62
     7
370
    25
100
AcDbLine
 10
601.2940466099
 20
-183.4661512559
 30
0.0
 11
567.4861560938
 21
-163.9492714894
 31
0.0
  0
LINE
  5
C6
330
1F
100
AcDbEntity
  8
0
  6
Continuous
 62
     7
370
    25
100
AcDbLine
 10
313.6603853046
 20
-144.432391723
 30
0.0
 11
546.2985163149
 21
-278.7315261178
 31
0.0
  0
LINE
  5
C7
330
1F
100
AcDbEntity
  8
0
  6
Continuous
 62
     7
370
    25
100
AcDbLine
 10
512.4727462522
 20
-195.7078369909
 30
0.0
 11
600.2333864381
 21
-145.0446978068
 31
0.0
  0
LINE
  5
C8
330
1F
100
AcDbEntity
  8
0
  6
Continuous
 62
     7
370
    25
100
AcDbLine
 10
545.2378561431
 20
-49.7793229449
 30
0.0
 11
457.4772159572
 21
-100.442462129
 31
0.0
  0
LINE
  5
C9
330
1F
100
AcDbEntity
  8
0
  6
Continuous
 62
     7
370
    25
100
AcDbLine
 10
457.4772159572
 20
-100.442462129
 30
0.0
 11
457.4772159572
 21
-208.8590161432
 31
0.0
  0
ELLIPSE
  5
CA
330
1F
100
AcDbEntity
  8
0
  6
Continuous
 62
     7
370
    25
100
AcDbEllipse
 10
457.4772159572
 20
-163.9492714894
 30
0.0
 11
77.78174593052017
 21
1.136868377216160E-13
 31
0.0
210
0.0
220
0.0
230
1.0
 40
0.5773815452
 41
4.712388980384697
 42
5.49770587972005
  0
LWPOLYLINE
  5
CB
330
1F
100
AcDbEntity
  8
0
  6
Continuous
 62
     7
370
    25
100
AcDbPolyline
 90
       89
 70
   128
 43
0.0
 10
380.0490234173
 20
-74.3484812169
 10
379.9499339303
 20
-71.2018598589
 10
379.6531704065
 20
-68.1856792485
 10
379.1602450849
 20
-65.3153091509
 10
378.4736697999
 20
-62.605376314
 10
377.5969431818
 20
-60.0696899345
 10
376.5345328285
 20
-57.7211712888
 10
375.2918525396
 20
-55.5717878897
 10
373.875234729
 20
-53.6324925024
 10
372.2918981563
 20
-51.9131673315
 10
370.5499111418
 20
-50.422573664
 10
368.658150452
 20
-49.1683072237
 10
366.6262560658
 20
-48.1567594647
 10
364.4645820513
 20
-47.3930850026
 10
362.1841438035
 20
-46.8811753473
 10
359.7965619133
 20
-46.6236390732
 10
357.3140029506
 20
-46.6217885261
 10
354.7491174667
 20
-46.875633136
 10
352.1149755303
 20
-47.3838793688
 10
349.4250001249
 20
-48.1439373183
 10
346.6928987484
 20
-49.1519339034
 10
343.9325935633
 20
-50.4027326046
 10
341.158150452
 20
-51.8899596383
 10
338.3837073408
 20
-53.6060364366
 10
335.6234021557
 20
-55.5422182653
 10
332.8913007792
 20
-57.6886387859
 10
330.2013253737
 20
-60.0343603311
 10
327.5671834373
 20
-62.5674296419
 10
325.0022979535
 20
-65.2749387775
 10
322.5197389908
 20
-68.143090892
 10
320.1321571005
 20
-71.1572705397
 10
317.8517188528
 20
-74.3021181521
 10
315.6900448382
 20
-77.5616083066
 10
313.658150452
 20
-80.9191313884
 10
311.7663897623
 20
-84.3575782295
 10
310.0244027478
 20
-87.8594272931
 10
308.4410661751
 20
-91.406833959
 10
307.0244483645
 20
-94.981721456
 10
305.7817680756
 20
-98.5658729768
 10
304.7193577222
 20
-102.1410245067
 10
303.8426311041
 20
-105.6889578933
 10
303.1560558192
 20
-109.191593681
 10
302.6631304976
 20
-112.6310832409
 10
302.3663669738
 20
-115.9898997226
 10
302.2672774868
 20
-119.2509273671
 10
302.3663669738
 20
-122.3975487252
 10
302.6631304976
 20
-125.4137293355
 10
303.1560558192
 20
-128.2840994332
 10
303.8426311041
 20
-130.99403227
 10
304.7193577222
 20
-133.5297186496
 10
305.7817680756
 20
-135.8782372952
 10
307.0244483645
 20
-138.0276206943
 10
308.4410661751
 20
-139.9669160817
 10
310.0244027478
 20
-141.6862412525
 10
311.7663897623
 20
-143.17683492
 10
313.658150452
 20
-144.4311013604
 10
315.6900448382
 20
-145.4426491194
 10
317.8517188528
 20
-146.2063235815
 10
320.1321571005
 20
-146.7182332367
 10
322.5197389908
 20
-146.9757695108
 10
325.0022979535
 20
-146.9776200579
 10
327.5671834373
 20
-146.7237754481
 10
330.2013253737
 20
-146.2155292153
 10
332.8913007792
 20
-145.4554712657
 10
335.6234021557
 20
-144.4474746806
 10
338.3837073408
 20
-143.1966759795
 10
341.158150452
 20
-141.7094489457
 10
343.9325935633
 20
-139.9933721475
 10
346.6928987484
 20
-138.0571903187
 10
349.4250001249
 20
-135.9107697982
 10
352.1149755303
 20
-133.5650482529
 10
354.7491174667
 20
-131.0319789422
 10
357.3140029506
 20
-128.3244698066
 10
359.7965619133
 20
-125.456317692
 10
362.1841438035
 20
-122.4421380443
 10
364.4645820513
 20
-119.2972904319
 10
366.6262560658
 20
-116.0378002775
 10
368.658150452
 20
-112.6802771957
 10
370.5499111418
 20
-109.2418303545
 10
372.2918981563
 20
-105.7399812909
 10
373.875234729
 20
-102.192574625
 10
375.2918525396
 20
-98.617687128
 10
376.5345328285
 20
-95.0335356073
 10
377.5969431818
 20
-91.4583840773
 10
378.4736697999
 20
-87.9104506908
 10
379.1602450849
 20
-84.407814903
 10
379.6531704065
 20
-80.9683253431
 10
379.9499339303
 20
-77.6095088614
 10
380.0490234173
 20
-74.3484812169
  0
LWPOLYLINE
  5
CC
330
1F
100
AcDbEntity
  8
0
  6
Continuous
 62
     7
370
    25
100
AcDbPolyline
 90
       13
 70
   128
 43
0.0
 10
612.6871544277
 20
-208.6476156117
 10
612.5880649407
 20
-205.5009942537
 10
612.2913014169
 20
-202.4848136434
 10
611.7983760953
 20
-199.6144435457
 10
611.1118008103
 20
-196.9045107088
 10
610.2350741922
 20
-194.3688243293
 10
609.1726638389
 20
-192.0203056836
 10
607.92998355
 20
-189.8709222846
 10
606.5133657393
 20
-187.9316268972
 10
604.9300291667
 20
-186.2123017263
 10
603.1880421522
 20
-184.7217080589
 10
601.2962814624
 20
-183.4674416185
 10
601.2940466099
 20
-183.4661512559
  0
LWPOLYLINE
  5
CD
330
1F
100
AcDbEntity
  8
0
  6
Continuous
 62
     7
370
    25
100
AcDbPolyline
 90
       34
 70
   128
 43
0.0
 10
546.2985163149
 20
-278.7315261178
 10
548.3281758486
 20
-279.7417835142
 10
550.4898498632
 20
-280.5054579763
 10
552.7702881109
 20
-281.0173676316
 10
555.1578700012
 20
-281.2749039056
 10
557.6404289639
 20
-281.2767544527
 10
560.2053144477
 20
-281.0229098429
 10
562.8394563841
 20
-280.5146636101
 10
565.5294317896
 20
-279.7546056606
 10
568.2615331661
 20
-278.7466090755
 10
571.0218383512
 20
-277.4958103743
 10
573.7962814624
 20
-276.0085833406
 10
576.5707245737
 20
-274.2925065423
 10
579.3310297588
 20
-272.3563247135
 10
582.0631311352
 20
-270.209904193
 10
584.7531065407
 20
-267.8641826477
 10
587.3872484771
 20
-265.331113337
 10
589.9521339609
 20
-262.6236042014
 10
592.4346929237
 20
-259.7554520869
 10
594.8222748139
 20
-256.7412724391
 10
597.1027130616
 20
-253.5964248267
 10
599.2643870762
 20
-250.3369346723
 10
601.2962814624
 20
-246.9794115905
 10
603.1880421522
 20
-243.5409647493
 10
604.9300291667
 20
-240.0391156857
 10
606.5133657393
 20
-236.4917090198
 10
607.92998355
 20
-232.9168215229
 10
609.1726638389
 20
-229.3326700021
 10
610.2350741922
 20
-225.7575184721
 10
611.1118008103
 20
-222.2095850856
 10
611.7983760953
 20
-218.7069492978
 10
612.2913014169
 20
-215.2674597379
 10
612.5880649407
 20
-211.9086432563
 10
612.6871544277
 20
-208.6476156117
  0
LWPOLYLINE
  5
CE
330
1F
100
AcDbEntity
  8
0
  6
Continuous
 62
     7
370
    25
100
AcDbPolyline
 90
       80
 70
   128
 43
0.0
 10
372.9779556054
 20
-78.430521776
 10
372.8773680788
 20
-75.5692460462
 10
372.5762414457
 20
-72.8421961089
 10
372.0764795257
 20
-70.266613252
 10
371.3812419744
 20
-67.8587811395
 10
370.4949243076
 20
-65.6339228614
 10
369.4231301109
 20
-63.6061046879
 10
368.1726356123
 20
-61.7881471384
 10
366.7513468406
 20
-60.191543926
 10
365.1682496411
 20
-58.8263892902
 10
363.433352864
 20
-57.7013141781
 10
361.5576250853
 20
-56.8234316768
 10
359.5529252599
 20
-56.1982920422
 10
357.4319277456
 20
-55.8298476083
 10
355.2080421716
 20
-55.7204277994
 10
352.8953286585
 20
-55.8707244029
 10
350.5084089257
 20
-56.2797871951
 10
348.0623738484
 20
-56.9450299494
 10
345.5726880478
 20
-57.862246787
 10
343.0550921191
 20
-59.0256387676
 10
340.5255031145
 20
-60.4278505526
 10
337.9999139101
 20
-62.0600169077
 10
335.4942920939
 20
-63.9118187515
 10
333.0244790138
 20
-65.9715483966
 10
330.6060896234
 20
-68.2261835691
 10
328.254413759
 20
-70.6614697394
 10
325.9843194726
 20
-73.2620102443
 10
323.8101590312
 20
-76.0113636295
 10
321.7456781771
 20
-78.8921475975
 10
319.8039292229
 20
-81.8861489046
 10
317.9971885308
 20
-84.9744385107
 10
316.3368788971
 20
-88.1374912544
 10
314.8334973339
 20
-91.3553092979
 10
313.4965487035
 20
-94.6075485595
 10
312.3344856255
 20
-97.8736473354
 10
311.354655037
 20
-101.1329562976
 10
310.5632517423
 20
-104.3648690455
 10
309.9652792479
 20
-107.5489523861
 10
309.5645181285
 20
-110.6650755192
 10
309.3635021248
 20
-113.6935373112
 10
309.3635021248
 20
-116.6151908516
 10
309.5645181285
 20
-119.4115645059
 10
309.9652792479
 20
-122.0649786996
 10
310.5632517423
 20
-124.5586576938
 10
311.354655037
 20
-126.876835647
 10
312.3344856255
 20
-129.0048562919
 10
313.4965487035
 20
-130.9292655967
 10
314.8334973339
 20
-132.6378968262
 10
316.3368788971
 20
-134.1199474637
 10
317.9971885308
 20
-135.3660475078
 10
319.8039292229
 20
-136.3683187129
 10
321.7456781771
 20
-137.1204243977
 10
323.8101590312
 20
-137.6176095078
 10
325.9843194726
 20
-137.8567306791
 10
328.254413759
 20
-137.8362761104
 10
330.6060896234
 20
-137.556375122
 10
333.0244790138
 20
-137.0187973382
 10
335.4942920939
 20
-136.2269414989
 10
337.9999139101
 20
-135.1858139715
 10
340.5255031145
 20
-133.9019970995
 10
343.0550921191
 20
-132.3836075865
 10
345.5726880478
 20
-130.6402451799
 10
348.0623738484
 20
-128.6829319782
 10
350.5084089257
 20
-126.5240427456
 10
352.8953286585
 20
-124.1772266749
 10
355.2080421716
 20
-121.6573210929
 10
357.4319277456
 20
-118.9802576541
 10
359.5529252599
 20
-116.1629616155
 10
361.5576250853
 20
-113.2232448297
 10
363.433352864
 20
-110.1796931327
 10
365.1682496411
 20
-107.0515488382
 10
366.7513468406
 20
-103.8585890818
 10
368.1726356123
 20
-100.621000783
 10
369.4231301109
 20
-97.3592530174
 10
370.4949243076
 20
-94.0939676046
 10
371.3812419744
 20
-90.8457887303
 10
372.0764795257
 20
-87.6352524272
 10
372.5762414457
 20
-84.4826567395
 10
372.8773680788
 20
-81.4079333921
 10
372.9779556054
 20
-78.430521776
  0
LWPOLYLINE
  5
CF
330
1F
100
AcDbEntity
  8
0
  6
Continuous
 62
     7
370
    25
100
AcDbPolyline
 90
       89
 70
   128
 43
0.0
 10
611.6264942559
 20
-119.863233451
 10
611.5274047689
 20
-116.6022058065
 10
611.2306412451
 20
-113.2433893248
 10
610.7377159235
 20
-109.8038997649
 10
610.0511406385
 20
-106.3012639771
 10
609.1744140204
 20
-102.7533305906
 10
608.1120036671
 20
-99.1781790606
 10
606.8693233782
 20
-95.5940275399
 10
605.4527055676
 20
-92.0191400429
 10
603.8693689949
 20
-88.471733377
 10
602.1273819804
 20
-84.9698843134
 10
600.2356212906
 20
-81.5314374722
 10
598.2037269044
 20
-78.1739143904
 10
596.0420528898
 20
-74.914424236
 10
593.7616146421
 20
-71.7695766236
 10
591.3740327519
 20
-68.7553969759
 10
588.8914737892
 20
-65.8872448613
 10
586.3265883053
 20
-63.1797357257
 10
583.6924463689
 20
-60.646666415
 10
581.0024709635
 20
-58.3009448697
 10
578.270369587
 20
-56.1545243492
 10
575.5100644019
 20
-54.2183425204
 10
572.7356212906
 20
-52.5022657222
 10
569.9611781794
 20
-51.0150386884
 10
567.2008729943
 20
-49.7642399873
 10
564.4687716178
 20
-48.7562434022
 10
561.7787962123
 20
-47.9961854527
 10
559.1446542759
 20
-47.4879392198
 10
556.5797687921
 20
-47.23409461
 10
554.0972098294
 20
-47.2359451571
 10
551.7096279391
 20
-47.4934814312
 10
549.4291896914
 20
-48.0053910864
 10
547.2675156768
 20
-48.7690655485
 10
545.2356212906
 20
-49.7806133075
 10
543.3438606009
 20
-51.0348797479
 10
541.6018735864
 20
-52.5254734154
 10
540.0185370137
 20
-54.2447985862
 10
538.6019192031
 20
-56.1840939736
 10
537.3592389142
 20
-58.3334773727
 10
536.2968285608
 20
-60.6819960183
 10
535.4201019427
 20
-63.2176823979
 10
534.7335266578
 20
-65.9276152347
 10
534.2406013362
 20
-68.7979853324
 10
533.9438378124
 20
-71.8141659427
 10
533.8447483254
 20
-74.9607873008
 10
533.9438378124
 20
-78.2218149453
 10
534.2406013362
 20
-81.580631427
 10
534.7335266578
 20
-85.0201209869
 10
535.4201019427
 20
-88.5227567746
 10
536.2968285608
 20
-92.0706901612
 10
537.3592389142
 20
-95.6458416911
 10
538.6019192031
 20
-99.2299932119
 10
540.0185370137
 20
-102.8048807089
 10
541.6018735864
 20
-106.3522873748
 10
543.3438606009
 20
-109.8541364384
 10
545.2356212906
 20
-113.2925832795
 10
547.2675156768
 20
-116.6501063613
 10
549.4291896914
 20
-119.9095965158
 10
551.7096279391
 20
-123.0544441282
 10
554.0972098294
 20
-126.0686237759
 10
556.5797687921
 20
-128.9367758904
 10
559.1446542759
 20
-131.6442850261
 10
561.7787962123
 20
-134.1773543368
 10
564.4687716178
 20
-136.523075882
 10
567.2008729943
 20
-138.6694964026
 10
569.9611781794
 20
-140.6056782313
 10
572.7356212906
 20
-142.3217550296
 10
575.5100644019
 20
-143.8089820633
 10
578.270369587
 20
-145.0597807645
 10
581.0024709635
 20
-146.0677773496
 10
583.6924463689
 20
-146.8278352991
 10
586.3265883053
 20
-147.3360815319
 10
588.8914737892
 20
-147.5899261418
 10
591.3740327519
 20
-147.5880755947
 10
593.7616146421
 20
-147.3305393206
 10
596.0420528898
 20
-146.8186296654
 10
598.2037269044
 20
-146.0549552032
 10
600.2356212906
 20
-145.0434074442
 10
602.1273819804
 20
-143.7891410039
 10
603.8693689949
 20
-142.2985473364
 10
605.4527055676
 20
-140.5792221655
 10
606.8693233782
 20
-138.6399267782
 10
608.1120036671
 20
-136.4905433791
 10
609.1744140204
 20
-134.1420247334
 10
610.0511406385
 20
-131.6063383539
 10
610.7377159235
 20
-128.896405517
 10
611.2306412451
 20
-126.0260354194
 10
611.5274047689
 20
-123.009854809
 10
611.6264942559
 20
-119.863233451
  0
LWPOLYLINE
  5
D0
330
1F
100
AcDbEntity
  8
0
  6
Continuous
 62
     7
370
    25
100
AcDbPolyline
 90
       80
 70
   128
 43
0.0
 10
604.555426444
 20
-115.7811928919
 10
604.4548389174
 20
-112.8037812758
 10
604.1537122843
 20
-109.7290579284
 10
603.6539503643
 20
-106.5764622407
 10
602.958712813
 20
-103.3659259376
 10
602.0723951462
 20
-100.1177470633
 10
601.0006009495
 20
-96.8524616505
 10
599.7501064509
 20
-93.5907138849
 10
598.3288176792
 20
-90.3531255861
 10
596.7457204797
 20
-87.1601658297
 10
595.0108237026
 20
-84.0320215352
 10
593.1350959239
 20
-80.9884698382
 10
591.1303960985
 20
-78.0487530524
 10
589.0093985842
 20
-75.2314570138
 10
586.7855130102
 20
-72.554393575
 10
584.4727994971
 20
-70.034487993
 10
582.0858797643
 20
-67.6876719223
 10
579.639844687
 20
-65.5287826897
 10
577.1501588864
 20
-63.571469488
 10
574.6325629577
 20
-61.8281070814
 10
572.1029739531
 20
-60.3097175684
 10
569.5773847486
 20
-59.0259006964
 10
567.0717629325
 20
-57.984773169
 10
564.6019498524
 20
-57.1929173297
 10
562.183560462
 20
-56.6553395459
 10
559.8318845976
 20
-56.3754385575
 10
557.5617903112
 20
-56.3549839888
 10
555.3876298698
 20
-56.5941051601
 10
553.3231490157
 20
-57.0912902703
 10
551.3814000615
 20
-57.843395955
 10
549.5746593694
 20
-58.8456671601
 10
547.9143497357
 20
-60.0917672042
 10
546.4109681725
 20
-61.5738178417
 10
545.0740195421
 20
-63.2824490712
 10
543.9119564641
 20
-65.206858376
 10
542.9321258756
 20
-67.3348790209
 10
542.1407225809
 20
-69.6530569741
 10
541.5427500865
 20
-72.1467359683
 10
541.1419889671
 20
-74.800150162
 10
540.9409729634
 20
-77.5965238163
 10
540.9409729634
 20
-80.5181773567
 10
541.1419889671
 20
-83.5466391487
 10
541.5427500865
 20
-86.6627622818
 10
542.1407225809
 20
-89.8468456224
 10
542.9321258756
 20
-93.0787583703
 10
543.9119564641
 20
-96.3380673325
 10
545.0740195421
 20
-99.6041661085
 10
546.4109681725
 20
-102.85640537
 10
547.9143497357
 20
-106.0742234135
 10
549.5746593694
 20
-109.2372761572
 10
551.3814000615
 20
-112.3255657633
 10
553.3231490157
 20
-115.3195670704
 10
555.3876298698
 20
-118.2003510384
 10
557.5617903112
 20
-120.9497044236
 10
559.8318845976
 20
-123.5502449285
 10
562.183560462
 20
-125.9855310988
 10
564.6019498524
 20
-128.2401662713
 10
567.0717629325
 20
-130.2998959164
 10
569.5773847486
 20
-132.1516977602
 10
572.1029739531
 20
-133.7838641153
 10
574.6325629577
 20
-135.1860759003
 10
577.1501588864
 20
-136.3494678809
 10
579.639844687
 20
-137.2666847185
 10
582.0858797643
 20
-137.9319274728
 10
584.4727994971
 20
-138.340990265
 10
586.7855130102
 20
-138.4912868685
 10
589.0093985842
 20
-138.3818670596
 10
591.1303960985
 20
-138.0134226257
 10
593.1350959239
 20
-137.3882829911
 10
595.0108237026
 20
-136.5104004898
 10
596.7457204797
 20
-135.3853253777
 10
598.3288176792
 20
-134.0201707419
 10
599.7501064509
 20
-132.4235675295
 10
601.0006009495
 20
-130.60560998
 10
602.0723951462
 20
-128.5777918065
 10
602.958712813
 20
-126.3529335284
 10
603.6539503643
 20
-123.9451014159
 10
604.1537122843
 20
-121.369518559
 10
604.4548389174
 20
-118.6424686218
 10
604.555426444
 20
-115.7811928919
  0
ENDSEC
  0
SECTION
  2
OBJECTS
  0
DICTIONARY
  5
C
330
0
100
AcDbDictionary
281
     1
  3
ACAD_GROUP
350
D
  3
ACAD_LAYOUT
350
1A
  3
ACAD_MLINESTYLE
350
17
  3
ACAD_PLOTSETTINGS
350
19
  3
ACAD_PLOTSTYLENAME
350
E
  3
ACAD_SCALELIST
350
47
  3
DWGPROPS
350
D1
  0
DICTIONARY
  5
D
102
{ACAD_REACTORS
330
C
102
}
330
C
100
AcDbDictionary
281
     1
  0
DICTIONARY
  5
1A
102
{ACAD_REACTORS
330
C
102
}
330
C
100
AcDbDictionary
281
     1
  3
Layout1
350
1E
  3
Layout2
350
26
  3
Model
350
22
  0
DICTIONARY
  5
17
102
{ACAD_REACTORS
330
C
102
}
330
C
100
AcDbDictionary
281
     1
  3
Standard
350
18
  0
DICTIONARY
  5
19
102
{ACAD_REACTORS
330
C
102
}
330
C
100
AcDbDictionary
281
     1
  0
ACDBDICTIONARYWDFLT
  5
E
102
{ACAD_REACTORS
330
C
102
}
330
C
100
AcDbDictionary
281
     1
  3
Normal
350
F
100
AcDbDictionaryWithDefault
340
F
  0
DICTIONARY
  5
47
102
{ACAD_REACTORS
330
C
102
}
330
C
100
AcDbDictionary
281
     1
  3
A0
350
48
  3
A1
350
49
  3
A2
350
4A
  3
A3
350
4B
  3
A4
350
4C
  3
A5
350
4D
  3
A6
350
4E
  3
A7
350
4F
  3
A8
350
50
  3
A9
350
51
  3
B0
350
52
  3
B1
350
53
  3
B2
350
54
  3
B3
350
55
  3
B4
350
56
  3
B5
350
57
  3
B6
350
58
  3
B7
350
59
  3
B8
350
5A
  3
B9
350
5B
  3
C0
350
5C
  3
C1
350
5D
  3
C2
350
5E
  3
C3
350
5F
  3
C4
350
60
  3
C5
350
61
  3
C6
350
62
  3
C7
350
63
  3
C8
350
64
  3
C9
350
65
  3
D0
350
66
  3
D1
350
67
  3
D2
350
68
  0
XRECORD
  5
D1
102
{ACAD_REACTORS
330
C
102
}
330
C
100
AcDbXrecord
280
     1
  1
DWGPROPS COOKIE
  2

  3

  4

  6

  7

  8
b.kav
  9

300
=
301
=
302
=
303
=
304
=
305
=
306
=
307
=
308
=
309
=
 40
0.0
 41
2460608.405307269
 42
2460608.40530735
  1

 90
        0
  0
LAYOUT
  5
1E
102
{ACAD_REACTORS
330
1A
102
}
330
1A
100
AcDbPlotSettings
  1

  2
none_device
  4

  6

 40
0.0
 41
0.0
 42
0.0
 43
0.0
 44
0.0
 45
0.0
 46
0.0
 47
0.0
 48
0.0
 49
0.0
140
0.0
141
0.0
142
1.0
143
1.0
 70
   688
 72
     1
 73
     0
 74
     5
  7

 75
    16
147
1.0
148
0.0
149
0.0
100
AcDbLayout
  1
Layout1
 70
     1
 71
     1
 10
0.0
 20
0.0
 11
420.0
 21
297.0
 12
0.0
 22
0.0
 32
0.0
 14
1.0000000000E+20
 24
1.0000000000E+20
 34
1.0000000000E+20
 15
-1.0000000000E+20
 25
-1.0000000000E+20
 35
-1.0000000000E+20
146
0.0
 13
0.0
 23
0.0
 33
0.0
 16
1.0
 26
0.0
 36
0.0
 17
0.0
 27
1.0
 37
0.0
 76
     0
330
1B
  0
LAYOUT
  5
26
102
{ACAD_REACTORS
330
1A
102
}
330
1A
100
AcDbPlotSettings
  1

  2
none_device
  4

  6

 40
0.0
 41
0.0
 42
0.0
 43
0.0
 44
0.0
 45
0.0
 46
0.0
 47
0.0
 48
0.0
 49
0.0
140
0.0
141
0.0
142
1.0
143
1.0
 70
   688
 72
     1
 73
     0
 74
     5
  7

 75
    16
147
1.0
148
0.0
149
0.0
100
AcDbLayout
  1
Layout2
 70
     1
 71
     2
 10
0.0
 20
0.0
 11
0.0
 21
0.0
 12
0.0
 22
0.0
 32
0.0
 14
0.0
 24
0.0
 34
0.0
 15
0.0
 25
0.0
 35
0.0
146
0.0
 13
0.0
 23
0.0
 33
0.0
 16
1.0
 26
0.0
 36
0.0
 17
0.0
 27
1.0
 37
0.0
 76
     0
330
23
  0
LAYOUT
  5
22
102
{ACAD_REACTORS
330
1A
102
}
330
1A
100
AcDbPlotSettings
  1

  2
none_device
  4
Letter_(8.50_x_11.00_Inches)
  6

 40
6.35
 41
6.35
 42
6.35000508
 43
6.35000508
 44
215.9
 45
279.4
 46
0.0
 47
0.0
 48
0.0
 49
0.0
140
0.0
141
0.0
142
1.0
143
1.0
 70
  1712
 72
     1
 73
     0
 74
     0
  7

 75
     0
147
1.0
148
0.0
149
0.0
100
AcDbLayout
  1
Model
 70
     1
 71
     0
 10
0.0
 20
0.0
 11
279.4
 21
215.9
 12
0.0
 22
0.0
 32
0.0
 14
0.0
 24
0.0
 34
0.0
 15
279.4
 25
215.9
 35
0.0
146
0.0
 13
0.0
 23
0.0
 33
0.0
 16
1.0
 26
0.0
 36
0.0
 17
0.0
 27
1.0
 37
0.0
 76
     0
330
1F
331
29
  0
MLINESTYLE
  5
18
102
{ACAD_REACTORS
330
17
102
}
330
17
100
AcDbMlineStyle
  2
Standard
 70
     0
  3

 62
   256
 51
90.0
 52
90.0
 71
     2
 49
0.5
 62
   256
  6
BYLAYER
 49
-0.5
 62
   256
  6
BYLAYER
  0
ACDBPLACEHOLDER
  5
F
102
{ACAD_REACTORS
330
E
102
}
330
E
  0
SCALE
  5
48
102
{ACAD_REACTORS
330
47
102
}
330
47
100
AcDbScale
 70
     0
300
1:1
140
1.0
141
1.0
290
     1
  0
SCALE
  5
49
102
{ACAD_REACTORS
330
47
102
}
330
47
100
AcDbScale
 70
     0
300
1:2
140
1.0
141
2.0
290
     0
  0
SCALE
  5
4A
102
{ACAD_REACTORS
330
47
102
}
330
47
100
AcDbScale
 70
     0
300
1:4
140
1.0
141
4.0
290
     0
  0
SCALE
  5
4B
102
{ACAD_REACTORS
330
47
102
}
330
47
100
AcDbScale
 70
     0
300
1:5
140
1.0
141
5.0
290
     0
  0
SCALE
  5
4C
102
{ACAD_REACTORS
330
47
102
}
330
47
100
AcDbScale
 70
     0
300
1:8
140
1.0
141
8.0
290
     0
  0
SCALE
  5
4D
102
{ACAD_REACTORS
330
47
102
}
330
47
100
AcDbScale
 70
     0
300
1:10
140
1.0
141
10.0
290
     0
  0
SCALE
  5
4E
102
{ACAD_REACTORS
330
47
102
}
330
47
100
AcDbScale
 70
     0
300
1:16
140
1.0
141
16.0
290
     0
  0
SCALE
  5
4F
102
{ACAD_REACTORS
330
47
102
}
330
47
100
AcDbScale
 70
     0
300
1:20
140
1.0
141
20.0
290
     0
  0
SCALE
  5
50
102
{ACAD_REACTORS
330
47
102
}
330
47
100
AcDbScale
 70
     0
300
1:30
140
1.0
141
30.0
290
     0
  0
SCALE
  5
51
102
{ACAD_REACTORS
330
47
102
}
330
47
100
AcDbScale
 70
     0
300
1:40
140
1.0
141
40.0
290
     0
  0
SCALE
  5
52
102
{ACAD_REACTORS
330
47
102
}
330
47
100
AcDbScale
 70
     0
300
1:50
140
1.0
141
50.0
290
     0
  0
SCALE
  5
53
102
{ACAD_REACTORS
330
47
102
}
330
47
100
AcDbScale
 70
     0
300
1:100
140
1.0
141
100.0
290
     0
  0
SCALE
  5
54
102
{ACAD_REACTORS
330
47
102
}
330
47
100
AcDbScale
 70
     0
300
2:1
140
2.0
141
1.0
290
     0
  0
SCALE
  5
55
102
{ACAD_REACTORS
330
47
102
}
330
47
100
AcDbScale
 70
     0
300
4:1
140
4.0
141
1.0
290
     0
  0
SCALE
  5
56
102
{ACAD_REACTORS
330
47
102
}
330
47
100
AcDbScale
 70
     0
300
8:1
140
8.0
141
1.0
290
     0
  0
SCALE
  5
57
102
{ACAD_REACTORS
330
47
102
}
330
47
100
AcDbScale
 70
     0
300
10:1
140
10.0
141
1.0
290
     0
  0
SCALE
  5
58
102
{ACAD_REACTORS
330
47
102
}
330
47
100
AcDbScale
 70
     0
300
100:1
140
100.0
141
1.0
290
     0
  0
SCALE
  5
59
102
{ACAD_REACTORS
330
47
102
}
330
47
100
AcDbScale
 70
     0
300
1/128" = 1'-0"
140
0.0078125
141
12.0
290
     0
  0
SCALE
  5
5A
102
{ACAD_REACTORS
330
47
102
}
330
47
100
AcDbScale
 70
     0
300
1/64" = 1'-0"
140
0.015625
141
12.0
290
     0
  0
SCALE
  5
5B
102
{ACAD_REACTORS
330
47
102
}
330
47
100
AcDbScale
 70
     0
300
1/32" = 1'-0"
140
0.03125
141
12.0
290
     0
  0
SCALE
  5
5C
102
{ACAD_REACTORS
330
47
102
}
330
47
100
AcDbScale
 70
     0
300
1/16" = 1'-0"
140
0.0625
141
12.0
290
     0
  0
SCALE
  5
5D
102
{ACAD_REACTORS
330
47
102
}
330
47
100
AcDbScale
 70
     0
300
3/32" = 1'-0"
140
0.09375
141
12.0
290
     0
  0
SCALE
  5
5E
102
{ACAD_REACTORS
330
47
102
}
330
47
100
AcDbScale
 70
     0
300
1/8" = 1'-0"
140
0.125
141
12.0
290
     0
  0
SCALE
  5
5F
102
{ACAD_REACTORS
330
47
102
}
330
47
100
AcDbScale
 70
     0
300
3/16" = 1'-0"
140
0.1875
141
12.0
290
     0
  0
SCALE
  5
60
102
{ACAD_REACTORS
330
47
102
}
330
47
100
AcDbScale
 70
     0
300
1/4" = 1'-0"
140
0.25
141
12.0
290
     0
  0
SCALE
  5
61
102
{ACAD_REACTORS
330
47
102
}
330
47
100
AcDbScale
 70
     0
300
3/8" = 1'-0"
140
0.375
141
12.0
290
     0
  0
SCALE
  5
62
102
{ACAD_REACTORS
330
47
102
}
330
47
100
AcDbScale
 70
     0
300
1/2" = 1'-0"
140
0.5
141
12.0
290
     0
  0
SCALE
  5
63
102
{ACAD_REACTORS
330
47
102
}
330
47
100
AcDbScale
 70
     0
300
3/4" = 1'-0"
140
0.75
141
12.0
290
     0
  0
SCALE
  5
64
102
{ACAD_REACTORS
330
47
102
}
330
47
100
AcDbScale
 70
     0
300
1" = 1'-0"
140
1.0
141
12.0
290
     0
  0
SCALE
  5
65
102
{ACAD_REACTORS
330
47
102
}
330
47
100
AcDbScale
 70
     0
300
1-1/2" = 1'-0"
140
1.5
141
12.0
290
     0
  0
SCALE
  5
66
102
{ACAD_REACTORS
330
47
102
}
330
47
100
AcDbScale
 70
     0
300
3" = 1'-0"
140
3.0
141
12.0
290
     0
  0
SCALE
  5
67
102
{ACAD_REACTORS
330
47
102
}
330
47
100
AcDbScale
 70
     0
300
6" = 1'-0"
140
6.0
141
12.0
290
     0
  0
SCALE
  5
68
102
{ACAD_REACTORS
330
47
102
}
330
47
100
AcDbScale
 70
     0
300
1'-0" = 1'-0"
140
12.0
141
12.0
290
     0
  0
ENDSEC
  0
EOF
